Имя

Пароль

Запомнить меня


Забыли пароль?
Зарегестрироваться

Навигация

КАТАЛОГ GTP:
A  Б  В  Г  Д  Е-Ё  Ж  З  И-Й  К  Л  М  Н  О  П  Р  С  Т  У  Ф  Х  Ц  Ч  Ш-Щ  Ь-Ы-Ъ  Э-Ю  Я 
0-9 
A  B  C  D  E  F  G  H  I  J  K  L  M  N  O  P  Q  R  S  T  U  V  W  X  Y  Z

Загрузить: скачать gtp версю песни Когда твоя девушка больна, Аккорды, текст, табулатура песни

Автор: Кино
Разместил: Silm   Дата: 2008-11-18 18:57

Когда твоя девушка больна

Музыка и слова - Виктор Цой.

Код:
Вступление:

G | D G | D G | D | G | D

C D G Em
e|----------------------------------------------------------------|
H|----------------------------------------------------------------|
G|-------------0--------------------------------------------------|
D|-----------------4---2---0--------------------------------------|
A|-----3---3-------------------3---2---------0-2------------------|
E|-----------------------------------------------3----------------|

C D G Em
e|----------------------------------------------------------------|
H|----------------------------------------------------------------|
G|----------------------------------------------------------------|
D|-------------2---0-----------------------------2----------------|
A|-----3---3-----------3---2---0-------------0-2------------------|
E|---------------------------------3------------------------------|

C D
e|-----0-----0---------2-----2---2-|
H|---2-----2-----2---3-----3---3---|
G|-0-----0-----0---2-----2---------|
D|---------------------------------|
A|---------------------------------|
E|---------------------------------|

G | D G | D G | D | G | D


G Em C D
День как день, только ты почему-то грустишь.
G Em C D
И вокруг все поют, только ты один молчишь.
G Em C D
Потерял аппетит и не хочешь сходить в кино.
G Em C D
Ты идешь в магазин, чтобы купить вино.

C D
Солнце светит и растет трава,
G Em
Но тебе она не нужна.
C D
Все не так и все не то,

G Em |
Когда твоя девушка больна. |
C D |
М-м-м-м. | > 2 раза.

G | D G | D G | D | G | D
Когда больна.

Ты идешь в магазин, головою поник,
Как будто иссяк чистый горный родник.
Она где-то лежит, ест мед и пьет аспирин,
И вот ты идешь на вечеринку один.

Солнце светит и растет трава,
Но тебе она не нужна.
Все не так и все не то,

Когда твоя девушка больна. |
На вечеринку - один, | > 2 раза.

Когда твоя девушка больна. |
М-м-м-м. | > 2 раза.

Когда твоя девушка больна.

Код:
Проигрыш:

С | C | D | D

G | G | Em | Em

С | C | D | D

G | D G | D G | D | G | D

Кода:

C D G Em
e|----------------------------------------------------------------|
H|----------------------------------------------------------------|
G|-------------0--------------------------------------------------|
D|-----------------4---2---0--------------------------------------|
A|-----3---3-------------------3---2---------0-2------------------|
E|-----------------------------------------------3----------------|

C D G Em
e|----------------------------------------------------------------|
H|----------------------------------------------------------------|
G|----------------------------------------------------------------|
D|-------------2---0-----------------------------2----------------|
A|-----3---3-----------3---2---0-------------0-2------------------|
E|---------------------------------3------------------------------|

C D G Em
e|----------------------------------------------------------------|
H|----------------------------------------------------------------|
G|-------------0---------------------------------0----------------|
D|-----------------4---2---0-------0-----------0------------------|
A|-----3---3-------------------3-------------2--------------------|
E|----------------------------------------------------------------|

C D G Em
e|-----0-----0---------2-----2---2-3---------5-7-3----------------|
H|---2-----2-----2---3-----3---3----------------------------------|
G|-0-----0-----0---2-----2----------------------------------------|
D|----------------------------------------------------------------|
A|----------------------------------------------------------------|
E|----------------------------------------------------------------|


1-kino-kogda-tvoja.rar




Cкачать: Когда твоя девушка больна
Размер: 4KB, скачано 845 раз
Комментарии:   Рейтинг:


Вы можете:

Заказать подбор песни Когда твоя девушка больна
Обсудить подбор песни Когда твоя девушка больна или сообщить об ошибке в подборе
Добавить\просмотреть Комментарии:

Чем открыть файлы в формае gtp? Guitar Pro 5.1


Похожие страницы:
# Заголовок Добавил Раздел Просмотров Дата
1 Девушка по городу Silm Бутусов Вячеслав 8485 28.11.2008
2 Когда-то ты был битником Silm Кино 3864 25.04.2010


Новые статьи:
Полезные статьи для музыкантов / Как подбирать аккорды песен (2009-07-02)
Статьи о Работе со звуком / Секреты малобюджетных технологий создания музыки (2009-06-14)
Статьи о Работе со звуком / Сведение – с чего начать? (2009-06-14)
Статьи о Работе со звуком / Основные понятия звукотехники (2009-06-14)
Статьи о Работе со звуком / Звукорежиссура и звукоизмерения (2009-06-14)
Статьи о Работе со звуком / Динамическая обработка аудио-сигналов на ПК (2009-06-14)
Статьи о Работе со звуком / Вокодеры (2009-06-14)
Статьи о Работе со звуком / Анализаторы спектра, как орудие звукозаписывающего п... (2009-06-14)
Статьи о Работе со звуком / Борьба с шумом (2009-06-14)
Статьи о Работе со звуком / 10 шагов к звуковому пейзажу (2009-06-14)


Новые программы:
Программы / Adobe Audition v3.0.1.8347 + русификатор (2009-12-01)
Программы / Cakewalk Studio Instruments VSTi v1.0 + лекарство (к... (2009-06-20)
Программы / SpinAudio ASIO FX Processor SE 1.2 + лекарство (сери... (2009-05-10)
Программы / IK Multimedia Amplitube X-Gear v1.2.1(VST RTAS) (Win... (2009-05-10)
Программы / IK Multimedia Amplitube Jimi Hendrix v1.0.1 (VST RTA... (2009-05-10)
Программы / IK Multimedia AmpliTube Fender VST, RTAS v1.0 + лек... (2009-05-10)
Программы / IK Multimedia Amplitube Live v2.0.2 VST RTAS - DYNAM... (2009-05-10)
Программы / IK Multimedia Ampeg SVX VST, RTAS 1.1.1+ лекарство (... (2009-05-09)
Программы / IK Multimedia AmpliTube2 (VST RTAS) v2.1.2 + лекарст... (2009-05-05)
Программы / IK Multimedia Amplitube Metal v1.0.1 (VST RTAS AU UB... (2009-04-25)


Новые книги:
Самоучители игры на клавишных / Простой и понятный самоучитель игры на синтезаторе (2009-12-14)
Самоучители игры на клавишных / Игра на клавишных в рок группе, самоучитель (2009-12-14)
Самоучители игры на клавишных / Научитесь играть на фортепиано за 10 уроков (2009-12-14)
Самоучители игры на клавишных / Школа самоучитель игры на фортепиано (2009-12-14)
Самоучители игры на клавишных / Самоучитель игры на синтезаторе (2009-12-14)
Самоучители Ударных инструментов / Ударные инструменты для чайников + MP3 примеры упраж... (2009-12-14)
Книги по вокалу, учебники, школы / Азбука вокала (2009-06-16)
Гитарные самоучители, школы игры / Самоучитель игры на гитаре (Фредерик Ноуд) (2009-06-16)
Гитарные самоучители, школы игры / Букварь гитариста. Пособие для начинающих (шестистру... (2009-06-16)
Пол Уайт- Творческая звукозапись / Техника продюсирования (2009-06-16)


Новые GTP, аккорды и тексы песен:
Аккорды, GTP, табы, тексты песен / Край Ветров аккорды (2010-09-22)
Кино / Я объявляю свой дом/Безъядерная зона (2010-04-25)
Кино / Я иду по улице (2010-04-25)
Кино / Это не любовь (2010-04-25)
Кино / Электричка (2010-04-25)
Кино / Черная река (2010-04-25)
Кино / Хочу перемен (2010-04-25)
Кино / Хочу быть с тобой (2010-04-25)
Кино / Фильмы (2010-04-25)
Кино / Уходи (2010-04-25)

Загрузить: скачать gtp версю песни Когда твоя девушка больна, Аккорды, GTP, табы, тексты песен / К / Кино